ISO-10303-21;
HEADER;
FILE_DESCRIPTION (( 'STEP AP203' ),
    '1' );
FILE_NAME ('KUŽEL.STEP',
    '2014-01-20T12:22:12',
    ( 'ELPLAST' ),
    ( 'elplast' ),
    'SwSTEP 2.0',
    'SolidWorks 2010',
    '' );
FILE_SCHEMA (( 'CONFIG_CONTROL_DESIGN' ));
ENDSEC;

DATA;
#1 = ORIENTED_EDGE ( 'NONE', *, *, #45, .F. ) ;
#2 = ORIENTED_EDGE ( 'NONE', *, *, #32, .F. ) ;
#3 = ORIENTED_EDGE ( 'NONE', *, *, #57, .F. ) ;
#4 = CARTESIAN_POINT ( 'NONE',  ( 47.00000000000000700, 5.755839955992561400E-015, 0.0000000000000000000 ) ) ;
#5 = EDGE_LOOP ( 'NONE', ( #6, #9, #11, #20 ) ) ;
#6 = ORIENTED_EDGE ( 'NONE', *, *, #10, .F. ) ;
#7 = VERTEX_POINT ( 'NONE', #4 ) ;
#8 = CLOSED_SHELL ( 'NONE', ( #24, #60, #19, #16, #51, #30 ) ) ;
#9 = ORIENTED_EDGE ( 'NONE', *, *, #48, .T. ) ;
#10 = EDGE_CURVE ( 'NONE', #40, #58, #241, .T. ) ;
#11 = ORIENTED_EDGE ( 'NONE', *, *, #41, .T. ) ;
#12 = EDGE_LOOP ( 'NONE', ( #26, #59, #50, #47 ) ) ;
#13 = VERTEX_POINT ( 'NONE', #242 ) ;
#14 = ORIENTED_EDGE ( 'NONE', *, *, #44, .T. ) ;
#15 = EDGE_LOOP ( 'NONE', ( #28, #3, #14, #33 ) ) ;
#16 = ADVANCED_FACE ( 'NONE', ( #236, #248 ), #249, .T. ) ;
#17 = EDGE_LOOP ( 'NONE', ( #56, #54 ) ) ;
#18 = VERTEX_POINT ( 'NONE', #245 ) ;
#19 = ADVANCED_FACE ( 'NONE', ( #244 ), #230, .T. ) ;
#20 = ORIENTED_EDGE ( 'NONE', *, *, #38, .F. ) ;
#21 = EDGE_LOOP ( 'NONE', ( #37, #36, #23, #39 ) ) ;
#22 = EDGE_CURVE ( 'NONE', #49, #13, #226, .T. ) ;
#23 = ORIENTED_EDGE ( 'NONE', *, *, #38, .T. ) ;
#24 = ADVANCED_FACE ( 'NONE', ( #229 ), #228, .F. ) ;
#25 = EDGE_CURVE ( 'NONE', #18, #46, #225, .T. ) ;
#26 = ORIENTED_EDGE ( 'NONE', *, *, #25, .F. ) ;
#27 = MANIFOLD_SOLID_BREP ( 'Odebrat vysunutím1', #8 ) ;
#28 = ORIENTED_EDGE ( 'NONE', *, *, #43, .F. ) ;
#29 = ORIENTED_EDGE ( 'NONE', *, *, #41, .F. ) ;
#30 = ADVANCED_FACE ( 'NONE', ( #221 ), #224, .F. ) ;
#31 = EDGE_LOOP ( 'NONE', ( #34, #29 ) ) ;
#32 = EDGE_CURVE ( 'NONE', #61, #7, #186, .T. ) ;
#33 = ORIENTED_EDGE ( 'NONE', *, *, #32, .T. ) ;
#34 = ORIENTED_EDGE ( 'NONE', *, *, #22, .F. ) ;
#35 = EDGE_CURVE ( 'NONE', #58, #40, #177, .T. ) ;
#36 = ORIENTED_EDGE ( 'NONE', *, *, #35, .F. ) ;
#37 = ORIENTED_EDGE ( 'NONE', *, *, #48, .F. ) ;
#38 = EDGE_CURVE ( 'NONE', #58, #49, #172, .T. ) ;
#39 = ORIENTED_EDGE ( 'NONE', *, *, #22, .T. ) ;
#40 = VERTEX_POINT ( 'NONE', #170 ) ;
#41 = EDGE_CURVE ( 'NONE', #13, #49, #164, .T. ) ;
#42 = EDGE_LOOP ( 'NONE', ( #2, #1 ) ) ;
#43 = EDGE_CURVE ( 'NONE', #18, #7, #222, .T. ) ;
#44 = EDGE_CURVE ( 'NONE', #46, #61, #106, .T. ) ;
#45 = EDGE_CURVE ( 'NONE', #7, #61, #111, .T. ) ;
#46 = VERTEX_POINT ( 'NONE', #178 ) ;
#47 = ORIENTED_EDGE ( 'NONE', *, *, #44, .F. ) ;
#48 = EDGE_CURVE ( 'NONE', #40, #13, #102, .T. ) ;
#49 = VERTEX_POINT ( 'NONE', #94 ) ;
#50 = ORIENTED_EDGE ( 'NONE', *, *, #45, .T. ) ;
#51 = ADVANCED_FACE ( 'NONE', ( #181, #92 ), #101, .F. ) ;
#52 = EDGE_LOOP ( 'NONE', ( #53, #55 ) ) ;
#53 = ORIENTED_EDGE ( 'NONE', *, *, #35, .T. ) ;
#54 = ORIENTED_EDGE ( 'NONE', *, *, #25, .T. ) ;
#55 = ORIENTED_EDGE ( 'NONE', *, *, #10, .T. ) ;
#56 = ORIENTED_EDGE ( 'NONE', *, *, #57, .T. ) ;
#57 = EDGE_CURVE ( 'NONE', #46, #18, #107, .T. ) ;
#58 = VERTEX_POINT ( 'NONE', #90 ) ;
#59 = ORIENTED_EDGE ( 'NONE', *, *, #43, .T. ) ;
#60 = ADVANCED_FACE ( 'NONE', ( #206 ), #95, .T. ) ;
#61 = VERTEX_POINT ( 'NONE', #200 ) ;
#62 = CC_DESIGN_PERSON_AND_ORGANIZATION_ASSIGNMENT ( #64, #63, ( #76 ) ) ;
#63 = PERSON_AND_ORGANIZATION_ROLE ( 'creator' ) ;
#64 = PERSON_AND_ORGANIZATION ( #84, #83 ) ;
#65 = CC_DESIGN_APPROVAL ( #73, ( #76 ) ) ;
#66 = APPROVAL_DATE_TIME ( #67, #73 ) ;
#67 = DATE_AND_TIME ( #68, #69 ) ;
#68 = CALENDAR_DATE ( 2014, 20, 1 ) ;
#69 = LOCAL_TIME ( 13, 22, 12.00000000000000000, #70 ) ;
#70 = COORDINATED_UNIVERSAL_TIME_OFFSET ( 1, 0, .AHEAD. ) ;
#71 = APPROVAL_PERSON_ORGANIZATION ( #75, #73, #72 ) ;
#72 = APPROVAL_ROLE ( '' ) ;
#73 = APPROVAL ( #74, 'NEURÈENÝ' ) ;
#74 = APPROVAL_STATUS ( 'not_yet_approved' ) ;
#75 = PERSON_AND_ORGANIZATION ( #84, #83 ) ;
#76 = PRODUCT_DEFINITION ( 'NEZNÁMÝ', '', #156, #77 ) ;
#77 = DESIGN_CONTEXT ( 'detailed design', #79, 'design' ) ;
#78 = APPLICATION_PROTOCOL_DEFINITION ( 'international standard', 'config_control_design', 1994, #79 ) ;
#79 = APPLICATION_CONTEXT ( 'configuration controlled 3d designs of mechanical parts and assemblies' ) ;
#80 = CC_DESIGN_PERSON_AND_ORGANIZATION_ASSIGNMENT ( #82, #81, ( #85 ) ) ;
#81 = PERSON_AND_ORGANIZATION_ROLE ( 'design_owner' ) ;
#82 = PERSON_AND_ORGANIZATION ( #84, #83 ) ;
#83 = ORGANIZATION ( 'NEURÈENÝ', 'NEURÈENÝ', '' ) ;
#84 = PERSON ( 'NEURÈENÝ', 'NEURÈENÝ', 'NEURÈENÝ', ('NEURÈENÝ'), ('NEURÈENÝ'), ('NEURÈENÝ') ) ;
#85 = PRODUCT ( 'KUŽEL', 'KUŽEL', '', ( #86 ) ) ;
#86 = MECHANICAL_CONTEXT ( 'NONE', #211, 'mechanical' ) ;
#87 = APPLICATION_PROTOCOL_DEFINITION ( 'international standard', 'config_control_design', 1994, #211 ) ;
#88 = DIRECTION ( 'NONE',  ( 1.000000000000000000, 0.0000000000000000000, -0.0000000000000000000 ) ) ;
#89 = DIRECTION ( 'NONE',  ( 0.0000000000000000000, 0.0000000000000000000, 1.000000000000000000 ) ) ;
#90 = CARTESIAN_POINT ( 'NONE',  ( 36.87670047111137700, 0.0000000000000000000, 150.0000000000000000 ) ) ;
#91 = VECTOR ( 'NONE', #99, 1000.000000000000000 ) ;
#92 = FACE_OUTER_BOUND ( 'NONE', #31, .T. ) ;
#93 = CARTESIAN_POINT ( 'NONE',  ( 0.0000000000000000000, 0.0000000000000000000, 0.0000000000000000000 ) ) ;
#94 = CARTESIAN_POINT ( 'NONE',  ( 50.00000000000000000, 0.0000000000000000000, 0.0000000000000000000 ) ) ;
#95 = CONICAL_SURFACE ( 'NONE', #205, 50.00000000000000000, 0.08726646259971666800 ) ;
#96 = AXIS2_PLACEMENT_3D ( 'NONE', #93, #89, #88 ) ;
#97 = DIRECTION ( 'NONE',  ( -1.000000000000000000, 0.0000000000000000000, 0.0000000000000000000 ) ) ;
#98 = DIRECTION ( 'NONE',  ( 0.0000000000000000000, 0.0000000000000000000, -1.000000000000000000 ) ) ;
#99 = DIRECTION ( 'NONE',  ( -0.08715574274765836000, -1.067350013832299500E-017, -0.9961946980917455500 ) ) ;
#100 = CARTESIAN_POINT ( 'NONE',  ( -50.00000000000000000, -6.123233995736766100E-015, 0.0000000000000000000 ) ) ;
#101 = PLANE ( 'NONE',  #96 ) ;
#102 = LINE ( 'NONE', #100, #91 ) ;
#103 = DIRECTION ( 'NONE',  ( -0.08715574274765836000, 0.0000000000000000000, -0.9961946980917455500 ) ) ;
#104 = VECTOR ( 'NONE', #103, 1000.000000000000000 ) ;
#105 = CARTESIAN_POINT ( 'NONE',  ( -47.00000000000000700, 0.0000000000000000000, 0.0000000000000000000 ) ) ;
#106 = LINE ( 'NONE', #105, #104 ) ;
#107 = CIRCLE ( 'NONE', #204, 33.87670047111138400 ) ;
#108 = DIRECTION ( 'NONE',  ( 0.08715574274765836000, 1.067350013832299500E-017, -0.9961946980917455500 ) ) ;
#109 = VECTOR ( 'NONE', #108, 1000.000000000000000 ) ;
#110 = CARTESIAN_POINT ( 'NONE',  ( 47.00000000000000700, 5.755839955992561400E-015, 0.0000000000000000000 ) ) ;
#111 = CIRCLE ( 'NONE', #163, 47.00000000000000700 ) ;
#112 = DIRECTION ( 'NONE',  ( 1.000000000000000000, 0.0000000000000000000, 0.0000000000000000000 ) ) ;
#113 = DIRECTION ( 'NONE',  ( 0.0000000000000000000, 0.0000000000000000000, 1.000000000000000000 ) ) ;
#114 = CARTESIAN_POINT ( 'NONE',  ( 0.0000000000000000000, 0.0000000000000000000, 0.0000000000000000000 ) ) ;
#115 = AXIS2_PLACEMENT_3D ( 'NONE', #114, #113, #112 ) ;
#116 = CC_DESIGN_SECURITY_CLASSIFICATION ( #137, ( #156 ) ) ;
#117 = CC_DESIGN_APPROVAL ( #125, ( #137 ) ) ;
#118 = APPROVAL_DATE_TIME ( #119, #125 ) ;
#119 = DATE_AND_TIME ( #120, #121 ) ;
#120 = CALENDAR_DATE ( 2014, 20, 1 ) ;
#121 = LOCAL_TIME ( 13, 22, 12.00000000000000000, #122 ) ;
#122 = COORDINATED_UNIVERSAL_TIME_OFFSET ( 1, 0, .AHEAD. ) ;
#123 = APPROVAL_PERSON_ORGANIZATION ( #127, #125, #124 ) ;
#124 = APPROVAL_ROLE ( '' ) ;
#125 = APPROVAL ( #126, 'NEURÈENÝ' ) ;
#126 = APPROVAL_STATUS ( 'not_yet_approved' ) ;
#127 = PERSON_AND_ORGANIZATION ( #84, #83 ) ;
#128 = CC_DESIGN_DATE_AND_TIME_ASSIGNMENT ( #130, #129, ( #137 ) ) ;
#129 = DATE_TIME_ROLE ( 'classification_date' ) ;
#130 = DATE_AND_TIME ( #131, #132 ) ;
#131 = CALENDAR_DATE ( 2014, 20, 1 ) ;
#132 = LOCAL_TIME ( 13, 22, 12.00000000000000000, #133 ) ;
#133 = COORDINATED_UNIVERSAL_TIME_OFFSET ( 1, 0, .AHEAD. ) ;
#134 = CC_DESIGN_PERSON_AND_ORGANIZATION_ASSIGNMENT ( #136, #135, ( #137 ) ) ;
#135 = PERSON_AND_ORGANIZATION_ROLE ( 'classification_officer' ) ;
#136 = PERSON_AND_ORGANIZATION ( #84, #83 ) ;
#137 = SECURITY_CLASSIFICATION ( '', '', #138 ) ;
#138 = SECURITY_CLASSIFICATION_LEVEL ( 'unclassified' ) ;
#139 = CC_DESIGN_PERSON_AND_ORGANIZATION_ASSIGNMENT ( #141, #140, ( #156 ) ) ;
#140 = PERSON_AND_ORGANIZATION_ROLE ( 'design_supplier' ) ;
#141 = PERSON_AND_ORGANIZATION ( #84, #83 ) ;
#142 = CC_DESIGN_PERSON_AND_ORGANIZATION_ASSIGNMENT ( #144, #143, ( #156 ) ) ;
#143 = PERSON_AND_ORGANIZATION_ROLE ( 'creator' ) ;
#144 = PERSON_AND_ORGANIZATION ( #84, #83 ) ;
#145 = CC_DESIGN_APPROVAL ( #153, ( #156 ) ) ;
#146 = APPROVAL_DATE_TIME ( #147, #153 ) ;
#147 = DATE_AND_TIME ( #148, #149 ) ;
#148 = CALENDAR_DATE ( 2014, 20, 1 ) ;
#149 = LOCAL_TIME ( 13, 22, 12.00000000000000000, #150 ) ;
#150 = COORDINATED_UNIVERSAL_TIME_OFFSET ( 1, 0, .AHEAD. ) ;
#151 = APPROVAL_PERSON_ORGANIZATION ( #155, #153, #152 ) ;
#152 = APPROVAL_ROLE ( '' ) ;
#153 = APPROVAL ( #154, 'NEURÈENÝ' ) ;
#154 = APPROVAL_STATUS ( 'not_yet_approved' ) ;
#155 = PERSON_AND_ORGANIZATION ( #84, #83 ) ;
#156 = PRODUCT_DEFINITION_FORMATION_WITH_SPECIFIED_SOURCE ( 'LIBOVOLNÝ', '', #85, .NOT_KNOWN. ) ;
#157 = CC_DESIGN_DATE_AND_TIME_ASSIGNMENT ( #159, #158, ( #76 ) ) ;
#158 = DATE_TIME_ROLE ( 'creation_date' ) ;
#159 = DATE_AND_TIME ( #160, #161 ) ;
#160 = CALENDAR_DATE ( 2014, 20, 1 ) ;
#161 = LOCAL_TIME ( 13, 22, 12.00000000000000000, #162 ) ;
#162 = COORDINATED_UNIVERSAL_TIME_OFFSET ( 1, 0, .AHEAD. ) ;
#163 = AXIS2_PLACEMENT_3D ( 'NONE', #171, #98, #97 ) ;
#164 = CIRCLE ( 'NONE', #115, 50.00000000000000000 ) ;
#165 = DIRECTION ( 'NONE',  ( 0.08715574274765836000, 0.0000000000000000000, -0.9961946980917455500 ) ) ;
#166 = CARTESIAN_POINT ( 'NONE',  ( 50.00000000000000000, 0.0000000000000000000, 0.0000000000000000000 ) ) ;
#167 = DIRECTION ( 'NONE',  ( 1.000000000000000000, 0.0000000000000000000, 0.0000000000000000000 ) ) ;
#168 = DIRECTION ( 'NONE',  ( 0.0000000000000000000, 0.0000000000000000000, 1.000000000000000000 ) ) ;
#169 = CARTESIAN_POINT ( 'NONE',  ( 0.0000000000000000000, 0.0000000000000000000, 150.0000000000000000 ) ) ;
#170 = CARTESIAN_POINT ( 'NONE',  ( -36.87670047111137700, -5.319663657621495500E-015, 150.0000000000000000 ) ) ;
#171 = CARTESIAN_POINT ( 'NONE',  ( 0.0000000000000000000, 0.0000000000000000000, 0.0000000000000000000 ) ) ;
#172 = LINE ( 'NONE', #166, #179 ) ;
#173 = AXIS2_PLACEMENT_3D ( 'NONE', #169, #168, #167 ) ;
#174 = DIRECTION ( 'NONE',  ( -1.000000000000000000, 0.0000000000000000000, 0.0000000000000000000 ) ) ;
#175 = DIRECTION ( 'NONE',  ( 0.0000000000000000000, 0.0000000000000000000, -1.000000000000000000 ) ) ;
#176 = AXIS2_PLACEMENT_3D ( 'NONE', #180, #175, #174 ) ;
#177 = CIRCLE ( 'NONE', #173, 36.87670047111137700 ) ;
#178 = CARTESIAN_POINT ( 'NONE',  ( -33.87670047111138400, 0.0000000000000000000, 150.0000000000000000 ) ) ;
#179 = VECTOR ( 'NONE', #165, 1000.000000000000000 ) ;
#180 = CARTESIAN_POINT ( 'NONE',  ( 0.0000000000000000000, 0.0000000000000000000, 0.0000000000000000000 ) ) ;
#181 = FACE_BOUND ( 'NONE', #42, .T. ) ;
#182 = DIRECTION ( 'NONE',  ( -0.0000000000000000000, -0.0000000000000000000, -1.000000000000000000 ) ) ;
#183 = DIRECTION ( 'NONE',  ( -1.000000000000000000, 0.0000000000000000000, 0.0000000000000000000 ) ) ;
#184 = DIRECTION ( 'NONE',  ( 0.0000000000000000000, 0.0000000000000000000, -1.000000000000000000 ) ) ;
#185 = AXIS2_PLACEMENT_3D ( 'NONE', #187, #184, #183 ) ;
#186 = CIRCLE ( 'NONE', #176, 47.00000000000000700 ) ;
#187 = CARTESIAN_POINT ( 'NONE',  ( 0.0000000000000000000, 0.0000000000000000000, 150.0000000000000000 ) ) ;
#188 = CARTESIAN_POINT ( 'NONE',  ( 0.0000000000000000000, 0.0000000000000000000, 0.0000000000000000000 ) ) ;
#189 = AXIS2_PLACEMENT_3D ( 'NONE', #188, #182, #233 ) ;
#190 = AXIS2_PLACEMENT_3D ( 'NONE', #217, #216, #223 ) ;
#191 = UNCERTAINTY_MEASURE_WITH_UNIT (LENGTH_MEASURE( 1.000000000000000100E-005 ), #194, 'distance_accuracy_value', 'NONE');
#192 =( NAMED_UNIT ( * ) SI_UNIT ( $, .STERADIAN. ) SOLID_ANGLE_UNIT ( ) );
#193 =( NAMED_UNIT ( * ) PLANE_ANGLE_UNIT ( ) SI_UNIT ( $, .RADIAN. ) );
#194 =( LENGTH_UNIT ( ) NAMED_UNIT ( * ) SI_UNIT ( .MILLI., .METRE. ) );
#195 = CARTESIAN_POINT ( 'NONE',  ( 0.0000000000000000000, 0.0000000000000000000, 0.0000000000000000000 ) ) ;
#196 = DIRECTION ( 'NONE',  ( 1.000000000000000000, 0.0000000000000000000, 0.0000000000000000000 ) ) ;
#197 = DIRECTION ( 'NONE',  ( 0.0000000000000000000, 0.0000000000000000000, 1.000000000000000000 ) ) ;
#198 = DIRECTION ( 'NONE',  ( -0.0000000000000000000, -0.0000000000000000000, -1.000000000000000000 ) ) ;
#199 = CARTESIAN_POINT ( 'NONE',  ( 0.0000000000000000000, 0.0000000000000000000, 0.0000000000000000000 ) ) ;
#200 = CARTESIAN_POINT ( 'NONE',  ( -47.00000000000000700, 0.0000000000000000000, 0.0000000000000000000 ) ) ;
#201 = DIRECTION ( 'NONE',  ( -1.000000000000000000, 0.0000000000000000000, 0.0000000000000000000 ) ) ;
#202 = DIRECTION ( 'NONE',  ( 0.0000000000000000000, 0.0000000000000000000, -1.000000000000000000 ) ) ;
#203 = CARTESIAN_POINT ( 'NONE',  ( 0.0000000000000000000, 0.0000000000000000000, 150.0000000000000000 ) ) ;
#204 = AXIS2_PLACEMENT_3D ( 'NONE', #203, #202, #201 ) ;
#205 = AXIS2_PLACEMENT_3D ( 'NONE', #199, #198, #196 ) ;
#206 = FACE_OUTER_BOUND ( 'NONE', #5, .T. ) ;
#207 = AXIS2_PLACEMENT_3D ( 'NONE', #235, #234, #227 ) ;
#208 = DIRECTION ( 'NONE',  ( 1.000000000000000000, 0.0000000000000000000, 0.0000000000000000000 ) ) ;
#209 = AXIS2_PLACEMENT_3D ( 'NONE', #195, #197, #208 ) ;
#210 = SHAPE_DEFINITION_REPRESENTATION ( #214, #212 ) ;
#211 = APPLICATION_CONTEXT ( 'configuration controlled 3d designs of mechanical parts and assemblies' ) ;
#212 = ADVANCED_BREP_SHAPE_REPRESENTATION ( 'KUŽEL', ( #27, #209 ), #213 ) ;
#213 =( GEOMETRIC_REPRESENTATION_CONTEXT ( 3 ) GLOBAL_UNCERTAINTY_ASSIGNED_CONTEXT ( ( #191 ) ) GLOBAL_UNIT_ASSIGNED_CONTEXT ( ( #194, #193, #192 ) ) REPRESENTATION_CONTEXT ( 'NONE', 'WORKASPACE' ) );
#214 = PRODUCT_DEFINITION_SHAPE ( 'NONE', 'NONE',  #76 ) ;
#215 = PRODUCT_RELATED_PRODUCT_CATEGORY ( 'detail', '', ( #85 ) ) ;
#216 = DIRECTION ( 'NONE',  ( -0.0000000000000000000, -0.0000000000000000000, -1.000000000000000000 ) ) ;
#217 = CARTESIAN_POINT ( 'NONE',  ( 0.0000000000000000000, 0.0000000000000000000, 0.0000000000000000000 ) ) ;
#218 = DIRECTION ( 'NONE',  ( 1.000000000000000000, 0.0000000000000000000, 0.0000000000000000000 ) ) ;
#219 = DIRECTION ( 'NONE',  ( 0.0000000000000000000, 0.0000000000000000000, 1.000000000000000000 ) ) ;
#220 = AXIS2_PLACEMENT_3D ( 'NONE', #232, #219, #218 ) ;
#221 = FACE_OUTER_BOUND ( 'NONE', #15, .T. ) ;
#222 = LINE ( 'NONE', #110, #109 ) ;
#223 = DIRECTION ( 'NONE',  ( -1.000000000000000000, 0.0000000000000000000, 0.0000000000000000000 ) ) ;
#224 = CONICAL_SURFACE ( 'NONE', #189, 47.00000000000000700, 0.08726646259971666800 ) ;
#225 = CIRCLE ( 'NONE', #185, 33.87670047111138400 ) ;
#226 = CIRCLE ( 'NONE', #220, 50.00000000000000000 ) ;
#227 = DIRECTION ( 'NONE',  ( 1.000000000000000000, 0.0000000000000000000, -0.0000000000000000000 ) ) ;
#228 = CONICAL_SURFACE ( 'NONE', #190, 47.00000000000000700, 0.08726646259971666800 ) ;
#229 = FACE_OUTER_BOUND ( 'NONE', #12, .T. ) ;
#230 = CONICAL_SURFACE ( 'NONE', #231, 50.00000000000000000, 0.08726646259971666800 ) ;
#231 = AXIS2_PLACEMENT_3D ( 'NONE', #243, #247, #246 ) ;
#232 = CARTESIAN_POINT ( 'NONE',  ( 0.0000000000000000000, 0.0000000000000000000, 0.0000000000000000000 ) ) ;
#233 = DIRECTION ( 'NONE',  ( -1.000000000000000000, 0.0000000000000000000, 0.0000000000000000000 ) ) ;
#234 = DIRECTION ( 'NONE',  ( 0.0000000000000000000, 0.0000000000000000000, 1.000000000000000000 ) ) ;
#235 = CARTESIAN_POINT ( 'NONE',  ( 0.0000000000000000000, 0.0000000000000000000, 150.0000000000000000 ) ) ;
#236 = FACE_BOUND ( 'NONE', #17, .T. ) ;
#237 = DIRECTION ( 'NONE',  ( 1.000000000000000000, 0.0000000000000000000, 0.0000000000000000000 ) ) ;
#238 = DIRECTION ( 'NONE',  ( 0.0000000000000000000, 0.0000000000000000000, 1.000000000000000000 ) ) ;
#239 = CARTESIAN_POINT ( 'NONE',  ( 0.0000000000000000000, 0.0000000000000000000, 150.0000000000000000 ) ) ;
#240 = AXIS2_PLACEMENT_3D ( 'NONE', #239, #238, #237 ) ;
#241 = CIRCLE ( 'NONE', #240, 36.87670047111137700 ) ;
#242 = CARTESIAN_POINT ( 'NONE',  ( -50.00000000000000000, -6.123233995736766100E-015, 0.0000000000000000000 ) ) ;
#243 = CARTESIAN_POINT ( 'NONE',  ( 0.0000000000000000000, 0.0000000000000000000, 0.0000000000000000000 ) ) ;
#244 = FACE_OUTER_BOUND ( 'NONE', #21, .T. ) ;
#245 = CARTESIAN_POINT ( 'NONE',  ( 33.87670047111138400, 4.952269617877290100E-015, 150.0000000000000000 ) ) ;
#246 = DIRECTION ( 'NONE',  ( 1.000000000000000000, 0.0000000000000000000, 0.0000000000000000000 ) ) ;
#247 = DIRECTION ( 'NONE',  ( -0.0000000000000000000, -0.0000000000000000000, -1.000000000000000000 ) ) ;
#248 = FACE_OUTER_BOUND ( 'NONE', #52, .T. ) ;
#249 = PLANE ( 'NONE',  #207 ) ;
ENDSEC;
END-ISO-10303-21;
